  0
SECTION
  2
HEADER
  9
$ACADVER
  1
AC1015
  9
$ACADMAINTVER
 70
     6
  9
$DWGCODEPAGE
  3
ANSI_1254
  9
$INSBASE
 10
0.0
 20
0.0
 30
0.0
  9
$EXTMIN
 10
0.0
 20
0.0
 30
0.0
  9
$EXTMAX
 10
279.4
 20
215.9
 30
0.0
  9
$LIMMIN
 10
0.0
 20
0.0
  9
$LIMMAX
 10
279.4
 20
215.9
  9
$ORTHOMODE
 70
     0
  9
$REGENMODE
 70
     1
  9
$FILLMODE
 70
     1
  9
$QTEXTMODE
 70
     0
  9
$MIRRTEXT
 70
     1
  9
$LTSCALE
 40
1.0
  9
$ATTMODE
 70
     1
  9
$TEXTSIZE
 40
3.5
  9
$TRACEWID
 40
1.0
  9
$TEXTSTYLE
  7
Standard
  9
$CLAYER
  8
0
  9
$CELTYPE
  6
ByLayer
  9
$CECOLOR
 62
   256
  9
$CELTSCALE
 40
1.0
  9
$DISPSILH
 70
     0
  9
$DIMSCALE
 40
1.0
  9
$DIMASZ
 40
3.5
  9
$DIMEXO
 40
1.0
  9
$DIMDLI
 40
3.75
  9
$DIMRND
 40
0.0
  9
$DIMDLE
 40
0.0
  9
$DIMEXE
 40
1.0
  9
$DIMTP
 40
0.0
  9
$DIMTM
 40
0.0
  9
$DIMTXT
 40
3.5
  9
$DIMCEN
 40
2.5
  9
$DIMTSZ
 40
0.0
  9
$DIMTOL
 70
     0
  9
$DIMLIM
 70
     0
  9
$DIMTIH
 70
     1
  9
$DIMTOH
 70
     1
  9
$DIMSE1
 70
     0
  9
$DIMSE2
 70
     0
  9
$DIMTAD
 70
     1
  9
$DIMZIN
 70
     0
  9
$DIMBLK
  1

  9
$DIMASO
 70
     1
  9
$DIMSHO
 70
     1
  9
$DIMPOST
  1

  9
$DIMAPOST
  1

  9
$DIMALT
 70
     0
  9
$DIMALTD
 70
     3
  9
$DIMALTF
 40
0.0393700787
  9
$DIMLFAC
 40
1.0
  9
$DIMTOFL
 70
     1
  9
$DIMTVP
 40
0.0
  9
$DIMTIX
 70
     0
  9
$DIMSOXD
 70
     0
  9
$DIMSAH
 70
     0
  9
$DIMBLK1
  1

  9
$DIMBLK2
  1

  9
$DIMSTYLE
  2
ISO-25
  9
$DIMCLRD
 70
     0
  9
$DIMCLRE
 70
     0
  9
$DIMCLRT
 70
     0
  9
$DIMTFAC
 40
1.0
  9
$DIMGAP
 40
1.524
  9
$DIMJUST
 70
     0
  9
$DIMSD1
 70
     0
  9
$DIMSD2
 70
     0
  9
$DIMTOLJ
 70
     0
  9
$DIMTZIN
 70
     0
  9
$DIMALTZ
 70
     0
  9
$DIMALTTZ
 70
     0
  9
$DIMUPT
 70
     0
  9
$DIMDEC
 70
     2
  9
$DIMTDEC
 70
     2
  9
$DIMALTU
 70
     2
  9
$DIMALTTD
 70
     3
  9
$DIMTXSTY
  7
Standard
  9
$DIMAUNIT
 70
     0
  9
$DIMADEC
 70
     2
  9
$DIMALTRND
 40
0.0
  9
$DIMAZIN
 70
     0
  9
$DIMDSEP
 70
    44
  9
$DIMATFIT
 70
     3
  9
$DIMFRAC
 70
     0
  9
$DIMLDRBLK
  1

  9
$DIMLUNIT
 70
     2
  9
$DIMLWD
 70
    -2
  9
$DIMLWE
 70
    -2
  9
$DIMTMOVE
 70
     0
  9
$LUNITS
 70
     2
  9
$LUPREC
 70
     2
  9
$SKETCHINC
 40
1.0
  9
$FILLETRAD
 40
10.0
  9
$AUNITS
 70
     0
  9
$AUPREC
 70
     2
  9
$MENU
  1
.
  9
$ELEVATION
 40
0.0
  9
$PELEVATION
 40
0.0
  9
$THICKNESS
 40
0.0
  9
$LIMCHECK
 70
     0
  9
$CHAMFERA
 40
0.0
  9
$CHAMFERB
 40
0.0
  9
$CHAMFERC
 40
0.0
  9
$CHAMFERD
 40
0.0
  9
$SKPOLY
 70
     0
  9
$TDCREATE
 40
2458985.646302361
  9
$TDUCREATE
 40
2458985.521302361
  9
$TDUPDATE
 40
2458985.646302616
  9
$TDUUPDATE
 40
2458985.521302616
  9
$TDINDWG
 40
0.0000000116
  9
$TDUSRTIMER
 40
0.0000000116
  9
$USRTIMER
 70
     1
  9
$ANGBASE
 50
0.0
  9
$ANGDIR
 70
     0
  9
$PDMODE
 70
     0
  9
$PDSIZE
 40
-1.0
  9
$PLINEWID
 40
0.0
  9
$SPLFRAME
 70
     0
  9
$SPLINETYPE
 70
     6
  9
$SPLINESEGS
 70
     8
  9
$HANDSEED
  5
C1
  9
$SURFTAB1
 70
     6
  9
$SURFTAB2
 70
     6
  9
$SURFTYPE
 70
     6
  9
$SURFU
 70
     6
  9
$SURFV
 70
     6
  9
$UCSBASE
  2

  9
$UCSNAME
  2

  9
$UCSORG
 10
0.0
 20
0.0
 30
0.0
  9
$UCSXDIR
 10
1.0
 20
0.0
 30
0.0
  9
$UCSYDIR
 10
0.0
 20
1.0
 30
0.0
  9
$UCSORTHOREF
  2

  9
$UCSORTHOVIEW
 70
     0
  9
$UCSORGTOP
 10
0.0
 20
0.0
 30
0.0
  9
$UCSORGBOTTOM
 10
0.0
 20
0.0
 30
0.0
  9
$UCSORGLEFT
 10
0.0
 20
0.0
 30
0.0
  9
$UCSORGRIGHT
 10
0.0
 20
0.0
 30
0.0
  9
$UCSORGFRONT
 10
0.0
 20
0.0
 30
0.0
  9
$UCSORGBACK
 10
0.0
 20
0.0
 30
0.0
  9
$PUCSBASE
  2

  9
$PUCSNAME
  2

  9
$PUCSORG
 10
0.0
 20
0.0
 30
0.0
  9
$PUCSXDIR
 10
1.0
 20
0.0
 30
0.0
  9
$PUCSYDIR
 10
0.0
 20
1.0
 30
0.0
  9
$PUCSORTHOREF
  2

  9
$PUCSORTHOVIEW
 70
     0
  9
$PUCSORGTOP
 10
0.0
 20
0.0
 30
0.0
  9
$PUCSORGBOTTOM
 10
0.0
 20
0.0
 30
0.0
  9
$PUCSORGLEFT
 10
0.0
 20
0.0
 30
0.0
  9
$PUCSORGRIGHT
 10
0.0
 20
0.0
 30
0.0
  9
$PUCSORGFRONT
 10
0.0
 20
0.0
 30
0.0
  9
$PUCSORGBACK
 10
0.0
 20
0.0
 30
0.0
  9
$USERI1
 70
     0
  9
$USERI2
 70
     0
  9
$USERI3
 70
     0
  9
$USERI4
 70
     0
  9
$USERI5
 70
     0
  9
$USERR1
 40
0.0
  9
$USERR2
 40
0.0
  9
$USERR3
 40
0.0
  9
$USERR4
 40
0.0
  9
$USERR5
 40
0.0
  9
$WORLDVIEW
 70
     1
  9
$SHADEDGE
 70
     3
  9
$SHADEDIF
 70
    70
  9
$TILEMODE
 70
     1
  9
$MAXACTVP
 70
    64
  9
$PINSBASE
 10
0.0
 20
0.0
 30
0.0
  9
$PLIMCHECK
 70
     0
  9
$PEXTMIN
 10
1.0000000000E+20
 20
1.0000000000E+20
 30
1.0000000000E+20
  9
$PEXTMAX
 10
-1.0000000000E+20
 20
-1.0000000000E+20
 30
-1.0000000000E+20
  9
$PLIMMIN
 10
0.0
 20
0.0
  9
$PLIMMAX
 10
420.0
 20
297.0
  9
$UNITMODE
 70
     0
  9
$VISRETAIN
 70
     1
  9
$PLINEGEN
 70
     0
  9
$PSLTSCALE
 70
     1
  9
$TREEDEPTH
 70
  3020
  9
$CMLSTYLE
  2
Standard
  9
$CMLJUST
 70
     0
  9
$CMLSCALE
 40
20.0
  9
$PROXYGRAPHICS
 70
     1
  9
$MEASUREMENT
 70
     1
  9
$CELWEIGHT
370
    -1
  9
$ENDCAPS
280
     0
  9
$JOINSTYLE
280
     0
  9
$LWDISPLAY
290
     1
  9
$INSUNITS
 70
     4
  9
$HYPERLINKBASE
  1

  9
$STYLESHEET
  1

  9
$XEDIT
290
     1
  9
$CEPSNTYPE
380
     0
  9
$PSTYLEMODE
290
     1
  9
$FINGERPRINTGUID
  2
{a9b6c7c1-3de7-40c4-aa79-fddff77c03ee}
  9
$VERSIONGUID
  2
{FAEB1C32-E019-11D5-929B-00C0DF256EC4}
  9
$EXTNAMES
290
     1
  9
$PSVPSCALE
 40
0.0
  9
$OLESTARTUP
290
     0
  0
ENDSEC
  0
SECTION
  2
CLASSES
  0
CLASS
  1
ACDBDICTIONARYWDFLT
  2
AcDbDictionaryWithDefault
  3
ObjectDBX Classes
 90
        0
280
     0
281
     0
  0
CLASS
  1
VISUALSTYLE
  2
AcDbVisualStyle
  3
ObjectDBX Classes
 90
     4095
280
     0
281
     0
  0
CLASS
  1
MATERIAL
  2
AcDbMaterial
  3
ObjectDBX Classes
 90
     1153
280
     0
281
     0
  0
CLASS
  1
SCALE
  2
AcDbScale
  3
ObjectDBX Classes
 90
     1153
280
     0
281
     0
  0
CLASS
  1
TABLESTYLE
  2
AcDbTableStyle
  3
ObjectDBX Classes
 90
     4095
280
     0
281
     0
  0
CLASS
  1
MLEADERSTYLE
  2
AcDbMLeaderStyle
  3
ACDB_MLEADERSTYLE_CLASS
 90
     4095
280
     0
281
     0
  0
CLASS
  1
SUN
  2
AcDbSun
  3
SCENEOE
 90
     1153
280
     0
281
     0
  0
CLASS
  1
ACDBPLACEHOLDER
  2
AcDbPlaceHolder
  3
ObjectDBX Classes
 90
        0
280
     0
281
     0
  0
CLASS
  1
LAYOUT
  2
AcDbLayout
  3
ObjectDBX Classes
 90
        0
280
     0
281
     0
  0
ENDSEC
  0
SECTION
  2
TABLES
  0
TABLE
  2
VPORT
  5
8
330
0
100
AcDbSymbolTable
 70
     1
  0
VPORT
  5
29
330
8
100
AcDbSymbolTableRecord
100
AcDbViewportTableRecord
  2
*Active
 70
     0
 10
0.0
 20
0.0
 11
1.0
 21
1.0
 12
139.7
 22
107.95
 13
0.0
 23
0.0
 14
10.0
 24
10.0
 15
10.0
 25
10.0
 16
0.0
 26
0.0
 36
1.0
 17
0.0
 27
0.0
 37
0.0
 40
215.9
 41
1.2941176471
 42
50.0
 43
0.0
 44
0.0
 50
0.0
 51
0.0
 71
     0
 72
  2000
 73
     1
 74
     3
 75
     0
 76
     0
 77
     0
 78
     0
281
     0
 65
     1
110
0.0
120
0.0
130
0.0
111
1.0
121
0.0
131
0.0
112
0.0
122
1.0
132
0.0
 79
     0
146
0.0
  0
ENDTAB
  0
TABLE
  2
LTYPE
  5
5
330
0
100
AcDbSymbolTable
 70
     6
  0
LTYPE
  5
14
330
5
100
AcDbSymbolTableRecord
100
AcDbLinetypeTableRecord
  2
ByBlock
 70
     0
  3

 72
    65
 73
     0
 40
0.0
  0
LTYPE
  5
15
330
5
100
AcDbSymbolTableRecord
100
AcDbLinetypeTableRecord
  2
ByLayer
 70
     0
  3

 72
    65
 73
     0
 40
0.0
  0
LTYPE
  5
16
330
5
100
AcDbSymbolTableRecord
100
AcDbLinetypeTableRecord
  2
Continuous
 70
     0
  3
Solid line
 72
    65
 73
     0
 40
0.0
  0
LTYPE
  5
6E
330
5
100
AcDbSymbolTableRecord
100
AcDbLinetypeTableRecord
  2
HIDDEN
 70
     0
  3
Hidden __ __ __ __ __ __ __ __ __ __ __ __ __ __
 72
    65
 73
     2
 40
1.905
 49
1.27
 74
     0
 49
-0.635
 74
     0
  0
LTYPE
  5
6F
330
5
100
AcDbSymbolTableRecord
100
AcDbLinetypeTableRecord
  2
PHANTOM
 70
     0
  3
Phantom ______  __  __  ______  __  __  ______
 72
    65
 73
     6
 40
12.7
 49
6.35
 74
     0
 49
-1.27
 74
     0
 49
1.27
 74
     0
 49
-1.27
 74
     0
 49
1.27
 74
     0
 49
-1.27
 74
     0
  0
LTYPE
  5
70
330
5
100
AcDbSymbolTableRecord
100
AcDbLinetypeTableRecord
  2
CENTER
 70
     0
  3
Center ____ _ ____ _ ____ _ ____ _ ____ _ ____
 72
    65
 73
     4
 40
10.16
 49
6.35
 74
     0
 49
-1.27
 74
     0
 49
1.27
 74
     0
 49
-1.27
 74
     0
  0
LTYPE
  5
71
330
5
100
AcDbSymbolTableRecord
100
AcDbLinetypeTableRecord
  2
CENTERX2
 70
     0
  3
Center (2x) ________  __  ________  __  _____
 72
    65
 73
     4
 40
20.32
 49
12.7
 74
     0
 49
-2.54
 74
     0
 49
2.54
 74
     0
 49
-2.54
 74
     0
  0
LTYPE
  5
72
330
5
100
AcDbSymbolTableRecord
100
AcDbLinetypeTableRecord
  2
DOT2
 70
     0
  3
Dot (.5x) ........................................
 72
    65
 73
     2
 40
0.635
 49
0.0
 74
     0
 49
-0.635
 74
     0
  0
ENDTAB
  0
TABLE
  2
LAYER
  5
2
330
0
100
AcDbSymbolTable
 70
    17
  0
LAYER
  5
10
330
2
100
AcDbSymbolTableRecord
100
AcDbLayerTableRecord
  2
0
 70
     0
 62
     7
  6
Continuous
370
    -3
390
F
  0
LAYER
  5
73
330
2
100
AcDbSymbolTableRecord
100
AcDbLayerTableRecord
  2
FORMAT
 70
     0
 62
     7
  6
Continuous
370
    -3
390
F
  0
LAYER
  5
74
330
2
100
AcDbSymbolTableRecord
100
AcDbLayerTableRecord
  2
YARDIMCI_GEOMETRI
 70
     0
 62
    -6
  6
Continuous
290
     0
370
    -3
390
F
  0
LAYER
  5
75
330
2
100
AcDbSymbolTableRecord
100
AcDbLayerTableRecord
  2
SAYFA_CERCEVESI
 70
     0
 62
     7
  6
Continuous
370
    25
390
F
  0
LAYER
  5
76
330
2
100
AcDbSymbolTableRecord
100
AcDbLayerTableRecord
  2
ANTET
 70
     0
 62
     7
  6
Continuous
370
    -3
390
F
  0
LAYER
  5
77
330
2
100
AcDbSymbolTableRecord
100
AcDbLayerTableRecord
  2
OLCU
 70
     0
 62
   150
  6
Continuous
370
    -3
390
F
  0
LAYER
  5
78
330
2
100
AcDbSymbolTableRecord
100
AcDbLayerTableRecord
  2
METIN
 70
     0
 62
    96
  6
Continuous
370
    -3
390
F
  0
LAYER
  5
79
330
2
100
AcDbSymbolTableRecord
100
AcDbLayerTableRecord
  2
BALON
 70
     0
 62
     5
  6
Continuous
370
    -3
390
F
  0
LAYER
  5
7A
330
2
100
AcDbSymbolTableRecord
100
AcDbLayerTableRecord
  2
VURGU
 70
     0
 62
     7
  6
Continuous
370
    -3
390
F
  0
LAYER
  5
7B
330
2
100
AcDbSymbolTableRecord
100
AcDbLayerTableRecord
  2
SILIK
 70
     0
 62
     7
  6
Continuous
370
    -3
390
F
  0
LAYER
  5
7C
330
2
100
AcDbSymbolTableRecord
100
AcDbLayerTableRecord
  2
MODEL
 70
     0
 62
     7
  6
Continuous
370
    -3
390
F
  0
LAYER
  5
7D
330
2
100
AcDbSymbolTableRecord
100
AcDbLayerTableRecord
  2
DETAYLANDıRMA
 70
     0
 62
   190
  6
Continuous
370
    -3
390
F
  0
LAYER
  5
7E
330
2
100
AcDbSymbolTableRecord
100
AcDbLayerTableRecord
  2
TOLERANS
 70
     0
 62
   230
  6
Continuous
370
    -3
390
F
  0
LAYER
  5
7F
330
2
100
AcDbSymbolTableRecord
100
AcDbLayerTableRecord
  2
MERKEZ_CIZGILERI
 70
     0
 62
    30
  6
Continuous
370
    -3
390
F
  0
LAYER
  5
80
330
2
100
AcDbSymbolTableRecord
100
AcDbLayerTableRecord
  2
KESIT-DETAY_CIZGILERI
 70
     0
 62
     7
  6
Continuous
370
    -3
390
F
  0
LAYER
  5
81
330
2
100
AcDbSymbolTableRecord
100
AcDbLayerTableRecord
  2
\U+041E\U+0421\U+0415\U+0412\U+042B\U+0415
 70
     0
 62
     7
  6
Continuous
370
    -3
390
F
  0
LAYER
  5
82
330
2
100
AcDbSymbolTableRecord
100
AcDbLayerTableRecord
  2
\U+0412\U+041E\U+0414\U+042F\U+041D\U+042B\U+0415_\U+0417\U+041D\U+0410\U+041A\U+0418
 70
     0
 62
    11
  6
Continuous
370
    -3
390
F
  0
ENDTAB
  0
TABLE
  2
STYLE
  5
3
330
0
100
AcDbSymbolTable
 70
     1
  0
STYLE
  5
11
330
3
100
AcDbSymbolTableRecord
100
AcDbTextStyleTableRecord
  2
Standard
 70
     0
 40
0.0
 41
1.0
 50
0.0
 71
     0
 42
3.5
  3
txt
  4

  0
ENDTAB
  0
TABLE
  2
VIEW
  5
6
330
0
100
AcDbSymbolTable
 70
     0
  0
ENDTAB
  0
TABLE
  2
UCS
  5
7
330
0
100
AcDbSymbolTable
 70
     0
  0
ENDTAB
  0
TABLE
  2
APPID
  5
9
330
0
100
AcDbSymbolTable
 70
     1
  0
APPID
  5
12
330
9
100
AcDbSymbolTableRecord
100
AcDbRegAppTableRecord
  2
ACAD
 70
     0
  0
ENDTAB
  0
TABLE
  2
DIMSTYLE
  5
A
330
0
100
AcDbSymbolTable
 70
     1
100
AcDbDimStyleTable
  0
DIMSTYLE
105
27
330
A
100
AcDbSymbolTableRecord
100
AcDbDimStyleTableRecord
  2
ISO-25
 70
     0
 41
2.5
 42
0.625
 43
3.75
 44
1.25
 73
     0
 74
     0
 77
     1
 78
     8
140
2.5
141
2.5
143
0.0393700787
147
0.625
171
     3
172
     1
178
     0
271
     2
272
     2
274
     3
278
    44
283
     0
284
     8
340
11
  0
ENDTAB
  0
TABLE
  2
BLOCK_RECORD
  5
1
330
0
100
AcDbSymbolTable
 70
     1
  0
BLOCK_RECORD
  5
1F
330
1
100
AcDbSymbolTableRecord
100
AcDbBlockTableRecord
  2
*Model_Space
340
22
  0
BLOCK_RECORD
  5
1B
330
1
100
AcDbSymbolTableRecord
100
AcDbBlockTableRecord
  2
*Paper_Space
340
1E
  0
BLOCK_RECORD
  5
23
330
1
100
AcDbSymbolTableRecord
100
AcDbBlockTableRecord
  2
*Paper_Space0
340
26
  0
ENDTAB
  0
ENDSEC
  0
SECTION
  2
BLOCKS
  0
BLOCK
  5
20
330
1F
100
AcDbEntity
  8
0
100
AcDbBlockBegin
  2
*Model_Space
 70
     0
 10
0.0
 20
0.0
 30
0.0
  3
*Model_Space
  1

  0
ENDBLK
  5
21
330
1F
100
AcDbEntity
  8
0
100
AcDbBlockEnd
  0
BLOCK
  5
1C
330
1B
100
AcDbEntity
 67
     1
  8
0
100
AcDbBlockBegin
  2
*Paper_Space
 70
     0
 10
0.0
 20
0.0
 30
0.0
  3
*Paper_Space
  1

  0
ENDBLK
  5
1D
330
1B
100
AcDbEntity
 67
     1
  8
0
100
AcDbBlockEnd
  0
BLOCK
  5
24
330
23
100
AcDbEntity
  8
0
100
AcDbBlockBegin
  2
*Paper_Space0
 70
     0
 10
0.0
 20
0.0
 30
0.0
  3
*Paper_Space0
  1

  0
ENDBLK
  5
25
330
23
100
AcDbEntity
  8
0
100
AcDbBlockEnd
  0
ENDSEC
  0
SECTION
  2
ENTITIES
  0
CIRCLE
  5
83
330
1F
100
AcDbEntity
  8
0
  6
Continuous
 62
     7
370
    25
100
AcDbCircle
 10
143.3166818726
 20
99.2348083811
 30
0.0
 40
112.5
  0
CIRCLE
  5
84
330
1F
100
AcDbEntity
  8
0
  6
Continuous
 62
     7
370
    25
100
AcDbCircle
 10
143.3166818726
 20
99.2348083811
 30
0.0
 40
91.99999999999997
  0
CIRCLE
  5
85
330
1F
100
AcDbEntity
  8
0
  6
Continuous
 62
     7
370
    25
100
AcDbCircle
 10
143.3166818726
 20
99.2348083811
 30
0.0
 40
119.0
  0
CIRCLE
  5
86
330
1F
100
AcDbEntity
  8
0
  6
Continuous
 62
     7
370
    25
100
AcDbCircle
 10
143.3166818726
 20
99.2348083811
 30
0.0
 40
134.0
  0
LINE
  5
87
330
1F
100
AcDbEntity
  8
0
  6
Continuous
 62
     7
370
    25
100
AcDbLine
 10
277.3166818726
 20
354.5603432455
 30
0.0
 11
277.3166818726
 21
386.5603432455
 31
0.0
  0
LINE
  5
88
330
1F
100
AcDbEntity
  8
0
  6
Continuous
 62
     7
370
    25
100
AcDbLine
 10
9.3166818726
 20
386.5603432455
 30
0.0
 11
9.3166818726
 21
354.5603432455
 31
0.0
  0
LINE
  5
89
330
1F
100
AcDbEntity
  8
0
  6
Continuous
 62
     7
370
    25
100
AcDbLine
 10
262.3166818726
 20
386.5603432455
 30
0.0
 11
255.8166818726
 21
421.5603432455
 31
0.0
  0
LINE
  5
8A
330
1F
100
AcDbEntity
  8
0
  6
Continuous
 62
     7
370
    25
100
AcDbLine
 10
30.8166818726
 20
421.5603432455
 30
0.0
 11
24.3166818726
 21
386.5603432455
 31
0.0
  0
LINE
  5
8B
330
1F
100
AcDbEntity
  8
0
  6
Continuous
 62
     7
370
    25
100
AcDbLine
 10
255.8166818726
 20
421.5603432455
 30
0.0
 11
255.8166818726
 21
474.5603432455
 31
0.0
  0
LINE
  5
8C
330
1F
100
AcDbEntity
  8
0
  6
Continuous
 62
     7
370
    25
100
AcDbLine
 10
30.8166818726
 20
474.5603432455
 30
0.0
 11
30.8166818726
 21
421.5603432455
 31
0.0
  0
LINE
  5
8D
330
1F
100
AcDbEntity
  8
0
  6
Continuous
 62
     7
370
    25
100
AcDbLine
 10
277.3166818726
 20
354.5603432455
 30
0.0
 11
9.3166818726
 21
354.5603432455
 31
0.0
  0
LINE
  5
8E
330
1F
100
AcDbEntity
  8
0
  6
Continuous
 62
     7
370
    25
100
AcDbLine
 10
277.3166818726
 20
386.5603432455
 30
0.0
 11
9.3166818726
 21
386.5603432455
 31
0.0
  0
LINE
  5
8F
330
1F
100
AcDbEntity
  8
0
  6
Continuous
 62
     7
370
    25
100
AcDbLine
 10
255.8166818726
 20
421.5603432455
 30
0.0
 11
30.8166818726
 21
421.5603432455
 31
0.0
  0
LINE
  5
90
330
1F
100
AcDbEntity
  8
0
  6
Continuous
 62
     7
370
    25
100
AcDbLine
 10
255.8166818726
 20
474.5603432455
 30
0.0
 11
30.8166818726
 21
474.5603432455
 31
0.0
  0
LINE
  5
91
330
1F
100
AcDbEntity
  8
0
  6
Continuous
 62
     7
370
    25
100
AcDbLine
 10
-185.7124700873
 20
233.2348083811
 30
0.0
 11
-217.7124700873
 21
233.2348083811
 31
0.0
  0
LINE
  5
92
330
1F
100
AcDbEntity
  8
0
  6
Continuous
 62
     7
370
    25
100
AcDbLine
 10
-217.7124700873
 20
-34.7651916189
 30
0.0
 11
-185.7124700873
 21
-34.7651916189
 31
0.0
  0
LINE
  5
93
330
1F
100
AcDbEntity
  8
0
  6
Continuous
 62
     7
370
    25
100
AcDbLine
 10
-217.7124700873
 20
218.2348083811
 30
0.0
 11
-252.7124700873
 21
211.7348083811
 31
0.0
  0
LINE
  5
94
330
1F
100
AcDbEntity
  8
0
  6
Continuous
 62
     7
370
    25
100
AcDbLine
 10
-252.7124700873
 20
-13.2651916189
 30
0.0
 11
-217.7124700873
 21
-19.7651916189
 31
0.0
  0
LINE
  5
95
330
1F
100
AcDbEntity
  8
0
  6
Continuous
 62
     7
370
    25
100
AcDbLine
 10
-252.7124700873
 20
211.7348083811
 30
0.0
 11
-305.7124700873
 21
211.7348083811
 31
0.0
  0
LINE
  5
96
330
1F
100
AcDbEntity
  8
0
  6
Continuous
 62
     7
370
    25
100
AcDbLine
 10
-305.7124700873
 20
-13.2651916189
 30
0.0
 11
-252.7124700873
 21
-13.2651916189
 31
0.0
  0
LINE
  5
97
330
1F
100
AcDbEntity
  8
0
  6
Continuous
 62
     7
370
    25
100
AcDbLine
 10
-185.7124700873
 20
233.2348083811
 30
0.0
 11
-185.7124700873
 21
-34.7651916189
 31
0.0
  0
LINE
  5
98
330
1F
100
AcDbEntity
  8
0
  6
Continuous
 62
     7
370
    25
100
AcDbLine
 10
-217.7124700873
 20
233.2348083811
 30
0.0
 11
-217.7124700873
 21
-34.7651916189
 31
0.0
  0
LINE
  5
99
330
1F
100
AcDbEntity
  8
0
  6
Continuous
 62
     7
370
    25
100
AcDbLine
 10
-252.7124700873
 20
211.7348083811
 30
0.0
 11
-252.7124700873
 21
-13.2651916189
 31
0.0
  0
LINE
  5
9A
330
1F
100
AcDbEntity
  8
0
  6
Continuous
 62
     7
370
    25
100
AcDbLine
 10
-305.7124700873
 20
211.7348083811
 30
0.0
 11
-305.7124700873
 21
-13.2651916189
 31
0.0
  0
LINE
  5
9B
330
1F
100
AcDbEntity
  8
0
  6
Continuous
 62
     7
370
    25
100
AcDbLine
 10
9.3166818726
 20
-161.3809425902
 30
0.0
 11
9.3166818726
 21
-193.3809425902
 31
0.0
  0
LINE
  5
9C
330
1F
100
AcDbEntity
  8
0
  6
Continuous
 62
     7
370
    25
100
AcDbLine
 10
277.3166818726
 20
-193.3809425902
 30
0.0
 11
277.3166818726
 21
-161.3809425902
 31
0.0
  0
LINE
  5
9D
330
1F
100
AcDbEntity
  8
0
  6
Continuous
 62
     7
370
    25
100
AcDbLine
 10
24.3166818726
 20
-193.3809425902
 30
0.0
 11
30.8166818726
 21
-228.3809425902
 31
0.0
  0
LINE
  5
9E
330
1F
100
AcDbEntity
  8
0
  6
Continuous
 62
     7
370
    25
100
AcDbLine
 10
255.8166818726
 20
-228.3809425902
 30
0.0
 11
262.3166818726
 21
-193.3809425902
 31
0.0
  0
LINE
  5
9F
330
1F
100
AcDbEntity
  8
0
  6
Continuous
 62
     7
370
    25
100
AcDbLine
 10
30.8166818726
 20
-228.3809425902
 30
0.0
 11
30.8166818726
 21
-281.3809425902
 31
0.0
  0
LINE
  5
A0
330
1F
100
AcDbEntity
  8
0
  6
Continuous
 62
     7
370
    25
100
AcDbLine
 10
255.8166818726
 20
-281.3809425902
 30
0.0
 11
255.8166818726
 21
-228.3809425902
 31
0.0
  0
LINE
  5
A1
330
1F
100
AcDbEntity
  8
0
  6
Continuous
 62
     7
370
    25
100
AcDbLine
 10
9.3166818726
 20
-161.3809425902
 30
0.0
 11
277.3166818726
 21
-161.3809425902
 31
0.0
  0
LINE
  5
A2
330
1F
100
AcDbEntity
  8
0
  6
Continuous
 62
     7
370
    25
100
AcDbLine
 10
9.3166818726
 20
-193.3809425902
 30
0.0
 11
277.3166818726
 21
-193.3809425902
 31
0.0
  0
LINE
  5
A3
330
1F
100
AcDbEntity
  8
0
  6
Continuous
 62
     7
370
    25
100
AcDbLine
 10
30.8166818726
 20
-228.3809425902
 30
0.0
 11
255.8166818726
 21
-228.3809425902
 31
0.0
  0
LINE
  5
A4
330
1F
100
AcDbEntity
  8
0
  6
Continuous
 62
     7
370
    25
100
AcDbLine
 10
30.8166818726
 20
-281.3809425902
 30
0.0
 11
255.8166818726
 21
-281.3809425902
 31
0.0
  0
LINE
  5
A5
330
1F
100
AcDbEntity
  8
0
  6
Continuous
 62
     7
370
    25
100
AcDbLine
 10
454.559702122
 20
-34.7651916189
 30
0.0
 11
486.559702122
 21
-34.7651916189
 31
0.0
  0
LINE
  5
A6
330
1F
100
AcDbEntity
  8
0
  6
Continuous
 62
     7
370
    25
100
AcDbLine
 10
486.559702122
 20
233.2348083811
 30
0.0
 11
454.559702122
 21
233.2348083811
 31
0.0
  0
LINE
  5
A7
330
1F
100
AcDbEntity
  8
0
  6
Continuous
 62
     7
370
    25
100
AcDbLine
 10
486.559702122
 20
-19.7651916189
 30
0.0
 11
521.559702122
 21
-13.2651916189
 31
0.0
  0
LINE
  5
A8
330
1F
100
AcDbEntity
  8
0
  6
Continuous
 62
     7
370
    25
100
AcDbLine
 10
521.559702122
 20
211.7348083811
 30
0.0
 11
486.559702122
 21
218.2348083811
 31
0.0
  0
LINE
  5
A9
330
1F
100
AcDbEntity
  8
0
  6
Continuous
 62
     7
370
    25
100
AcDbLine
 10
521.559702122
 20
-13.2651916189
 30
0.0
 11
574.559702122
 21
-13.2651916189
 31
0.0
  0
LINE
  5
AA
330
1F
100
AcDbEntity
  8
0
  6
Continuous
 62
     7
370
    25
100
AcDbLine
 10
574.559702122
 20
211.7348083811
 30
0.0
 11
521.559702122
 21
211.7348083811
 31
0.0
  0
LINE
  5
AB
330
1F
100
AcDbEntity
  8
0
  6
Continuous
 62
     7
370
    25
100
AcDbLine
 10
454.559702122
 20
99.2348083811
 30
0.0
 11
454.559702122
 21
233.2348083811
 31
0.0
  0
LINE
  5
AC
330
1F
100
AcDbEntity
  8
0
  6
Continuous
 62
     7
370
    25
100
AcDbLine
 10
454.559702122
 20
-34.7651916189
 30
0.0
 11
454.559702122
 21
99.2348083811
 31
0.0
  0
LINE
  5
AD
330
1F
100
AcDbEntity
  8
0
  6
Continuous
 62
     7
370
    25
100
AcDbLine
 10
486.559702122
 20
99.2348083811
 30
0.0
 11
486.559702122
 21
233.2348083811
 31
0.0
  0
LINE
  5
AE
330
1F
100
AcDbEntity
  8
0
  6
Continuous
 62
     7
370
    25
100
AcDbLine
 10
486.559702122
 20
-34.7651916189
 30
0.0
 11
486.559702122
 21
99.2348083811
 31
0.0
  0
LINE
  5
AF
330
1F
100
AcDbEntity
  8
0
  6
Continuous
 62
     7
370
    25
100
AcDbLine
 10
521.559702122
 20
99.2348083811
 30
0.0
 11
521.559702122
 21
211.7348083811
 31
0.0
  0
LINE
  5
B0
330
1F
100
AcDbEntity
  8
0
  6
Continuous
 62
     7
370
    25
100
AcDbLine
 10
521.559702122
 20
-13.2651916189
 30
0.0
 11
521.559702122
 21
99.2348083811
 31
0.0
  0
LINE
  5
B1
330
1F
100
AcDbEntity
  8
0
  6
Continuous
 62
     7
370
    25
100
AcDbLine
 10
574.559702122
 20
99.2348083811
 30
0.0
 11
574.559702122
 21
211.7348083811
 31
0.0
  0
LINE
  5
B2
330
1F
100
AcDbEntity
  8
0
  6
Continuous
 62
     7
370
    25
100
AcDbLine
 10
574.559702122
 20
-13.2651916189
 30
0.0
 11
574.559702122
 21
99.2348083811
 31
0.0
  0
LINE
  5
B3
330
1F
100
AcDbEntity
  8
0
  6
Continuous
 62
     7
370
    25
100
AcDbLine
 10
526.7365013737
 20
-129.8021040293
 30
0.0
 11
489.2598419708
 21
-108.167289066
 31
0.0
  0
LINE
  5
B4
330
1F
100
AcDbEntity
  8
0
  6
Continuous
 62
     7
370
    25
100
AcDbLine
 10
376.7689845492
 20
-303.0282831017
 30
0.0
 11
414.2456439521
 21
-324.663098065
 31
0.0
  0
LINE
  5
B5
330
1F
100
AcDbEntity
  8
0
  6
Continuous
 62
     7
370
    25
100
AcDbLine
 10
546.4048657101
 20
-134.8411786053
 30
0.0
 11
523.026463871
 21
-127.6603449677
 31
0.0
  0
LINE
  5
B6
330
1F
100
AcDbEntity
  8
0
  6
Continuous
 62
     7
370
    25
100
AcDbLine
 10
410.5356064495
 20
-322.5213390033
 30
0.0
 11
428.4451545978
 21
-339.1755315506
 31
0.0
  0
LINE
  5
B7
330
1F
100
AcDbEntity
  8
0
  6
Continuous
 62
     7
370
    25
100
AcDbLine
 10
584.861782089
 20
-138.5317252342
 30
0.0
 11
562.234365091
 21
-125.469195445
 31
0.0
  0
LINE
  5
B8
330
1F
100
AcDbEntity
  8
0
  6
Continuous
 62
     7
370
    25
100
AcDbLine
 10
428.2452549178
 20
-357.5702905631
 30
0.0
 11
450.8726719158
 21
-370.6328203522
 31
0.0
  0
LWPOLYLINE
  5
B9
330
1F
100
AcDbEntity
  8
0
  6
Continuous
 62
     7
370
    25
100
AcDbPolyline
 90
      128
 70
   128
 43
0.0
 10
353.4649003765
 20
-251.5207423739
 10
353.5622358707
 20
-246.9216914698
 10
353.8540041568
 20
-242.2215140446
 10
354.339491229
 20
-237.4317122199
 10
355.0175090191
 20
-232.5640074435
 10
355.8863983039
 20
-227.6303118047
 10
356.9440327658
 20
-222.6426988834
 10
358.187824196
 20
-217.6133742043
 10
359.6147288284
 20
-212.5546453676
 10
361.2212547884
 20
-207.4788919304
 10
363.0034706376
 20
-202.398535112
 10
364.9570149952
 20
-197.3260073968
 10
367.0771072108
 20
-192.2737221102
 10
369.3585590636
 20
-187.2540430409
 10
371.7957874585
 20
-182.2792541847
 10
374.3828280892
 20
-177.3615296835
 10
377.1133500339
 20
-172.5129040334
 10
379.9806712476
 20
-167.7452426337
 10
382.977774915
 20
-163.0702127509
 10
386.0973266212
 20
-158.4992549664
 10
389.3316923003
 20
-154.0435551799
 10
392.6729569176
 20
-149.7140172354
 10
396.1129438386
 20
-145.5212362379
 10
399.643234839
 20
-141.4754726249
 10
403.255190705
 20
-137.5866270581
 10
406.9399723753
 20
-133.8642161941
 10
410.6885625719
 20
-130.3173493962
 10
414.4917878663
 20
-126.9547064416
 10
418.3403411289
 20
-123.7845162813
 10
422.2248043049
 20
-120.8145369018
 10
426.1356714621
 20
-118.0520363403
 10
430.0633720531
 20
-115.5037748985
 10
433.9982943365
 20
-113.1759885993
 10
437.930808898
 20
-111.0743739259
 10
441.8512922156
 20
-109.2040738814
 10
445.7501502095
 20
-107.5696654035
 10
449.617841721
 20
-106.1751481636
 10
453.4449018607
 20
-105.0239347791
 10
457.2219651713
 20
-104.1188424621
 10
460.9397885459
 20
-103.462086125
 10
464.5892738477
 20
-103.0552729608
 10
468.1614901745
 20
-102.8993985095
 10
471.6476957145
 20
-102.9948442218
 10
475.0393591385
 20
-103.3413765262
 10
478.3281804777
 20
-103.9381474
 10
481.5061114353
 20
-104.783696445
 10
484.5653750816
 20
-105.8759544609
 10
487.4984848858
 20
-107.2122485093
 10
490.2982630368
 20
-108.7893084547
 10
492.9578580083
 20
-110.6032749672
 10
495.4707613257
 20
-112.6497089669
 10
497.8308234934
 20
-114.9236024866
 10
500.0322690439
 20
-117.4193909281
 10
502.069710671
 20
-120.1309666786
 10
503.9381624137
 20
-123.0516940581
 10
505.6330518574
 20
-126.1744255571
 10
507.1502313236
 20
-129.4915193284
 10
508.48598802
 20
-132.9948578877
 10
509.6370531261
 20
-136.6758679785
 10
510.6006097926
 20
-140.5255415522
 10
511.374300035
 20
-144.5344578125
 10
511.9562305036
 20
-148.6928062696
 10
512.3449771169
 20
-152.990410748
 10
512.539588547
 20
-157.4167542893
 10
512.539588547
 20
-161.9610048892
 10
512.3449771169
 20
-166.6120420049
 10
511.9562305036
 20
-171.3584837693
 10
511.374300035
 20
-176.188714844
 10
510.6006097926
 20
-181.0909148441
 10
509.6370531261
 20
-186.0530872648
 10
508.48598802
 20
-191.0630888386
 10
507.1502313236
 20
-196.1086592522
 10
505.6330518574
 20
-201.1774511493
 10
503.9381624137
 20
-206.2570603467
 10
502.069710671
 20
-211.3350561895
 10
500.0322690439
 20
-216.3990119709
 10
497.8308234934
 20
-221.4365353426
 10
495.4707613257
 20
-226.4352986408
 10
492.9578580083
 20
-231.3830690539
 10
490.2982630368
 20
-236.2677385588
 10
487.4984848858
 20
-241.0773535505
 10
484.5653750816
 20
-245.8001440953
 10
481.5061114353
 20
-250.4245527332
 10
478.3281804777
 20
-254.9392627615
 10
475.0393591385
 20
-259.3332259281
 10
471.6476957145
 20
-263.5956894689
 10
468.1614901745
 20
-267.7162224213
 10
464.5892738477
 20
-271.6847411507
 10
460.9397885459
 20
-275.4915340268
 10
457.2219651713
 20
-279.1272851895
 10
453.4449018607
 20
-282.5830973464
 10
449.617841721
 20
-285.8505135461
 10
445.7501502095
 20
-288.9215378737
 10
441.8512922156
 20
-291.7886550179
 10
437.930808898
 20
-294.4448486627
 10
433.9982943365
 20
-296.8836186571
 10
430.0633720531
 20
-299.0989969224
 10
426.1356714621
 20
-301.0855620566
 10
422.2248043049
 20
-302.8384526019
 10
418.3403411289
 20
-304.3533789415
 10
414.4917878663
 20
-305.6266337968
 10
410.6885625719
 20
-306.6551012997
 10
406.9399723753
 20
-307.436264618
 10
403.255190705
 20
-307.9682121141
 10
399.643234839
 20
-308.2496420233
 10
396.1129438386
 20
-308.2798656396
 10
392.6729569176
 20
-308.0588090005
 10
389.3316923003
 20
-307.5870130688
 10
386.0973266212
 20
-306.8656324083
 10
382.977774915
 20
-305.8964323581
 10
379.9806712476
 20
-304.6817847134
 10
377.1133500339
 20
-303.2246619203
 10
374.3828280892
 20
-301.5286298026
 10
371.7957874585
 20
-299.597838835
 10
369.3585590636
 20
-297.4370139866
 10
367.0771072108
 20
-295.0514431579
 10
364.9570149952
 20
-292.4469642405
 10
363.0034706376
 20
-289.6299508307
 10
361.2212547884
 20
-286.6072966323
 10
359.6147288284
 20
-283.3863985868
 10
358.187824196
 20
-279.9751387713
 10
356.9440327658
 20
-276.3818651102
 10
355.8863983039
 20
-272.6153709464
 10
355.0175090191
 20
-268.6848735222
 10
354.339491229
 20
-264.5999914234
 10
353.8540041568
 20
-260.3707210411
 10
353.5622358707
 20
-256.0074121085
 10
353.4649003765
 20
-251.5207423739
  0
LWPOLYLINE
  5
BA
330
1F
100
AcDbEntity
  8
0
  6
Continuous
 62
     7
370
    25
100
AcDbPolyline
 90
      116
 70
   128
 43
0.0
 10
367.9605893909
 20
-243.1525592277
 10
368.0576624803
 20
-238.9941800583
 10
368.3485920442
 20
-234.7361329234
 10
368.8325098346
 20
-230.3911255092
 10
369.5079716505
 20
-225.9721250255
 10
370.3729616483
 20
-221.4923195065
 10
371.424898358
 20
-216.9650784528
 10
372.660642387
 20
-212.4039129308
 10
374.0765057893
 20
-207.8224352513
 10
375.6682630722
 20
-203.2343183444
 10
377.4311638063
 20
-198.6532549541
 10
379.3599468028
 20
-194.0929167741
 10
381.4488558153
 20
-189.5669136459
 10
383.6916567182
 20
-185.0887529418
 10
386.0816561122
 20
-180.6717992534
 10
388.6117212997
 20
-176.3292345064
 10
391.2743015718
 20
-172.0740186208
 10
394.0614507425
 20
-167.9188508334
 10
396.9648508632
 20
-163.8761317979
 10
399.9758370468
 20
-159.9579265768
 10
403.0854233271
 20
-156.1759286345
 10
406.2843294765
 20
-152.5414249393
 10
409.5630087017
 20
-149.0652622787
 10
412.9116761354
 20
-145.7578148884
 10
416.3203380377
 20
-142.6289534913
 10
419.7788216218
 20
-139.6880158396
 10
423.2768054134
 20
-136.9437788471
 10
426.803850054
 20
-134.4044323956
 10
430.3494294562
 20
-132.0775548929
 10
433.9029622175
 20
-129.9700906561
 10
437.4538431994
 20
-128.0883291867
 10
440.9914751776
 20
-126.4378864005
 10
444.5053004678
 20
-125.0236878676
 10
447.9848324342
 20
-123.8499541121
 10
451.4196867859
 20
-122.920188017
 10
454.7996125676
 20
-122.2371643696
 10
458.1145227521
 20
-121.802921581
 10
461.3545243447
 20
-121.6187556023
 10
464.5099479072
 20
-121.6852160573
 10
467.5713764155
 20
-122.0021046017
 10
470.5296733637
 20
-122.5684755156
 10
473.3760100309
 20
-123.3826385257
 10
476.1018918299
 20
-124.4421638494
 10
478.6991836579
 20
-125.7438894468
 10
481.1601341754
 20
-127.2839304571
 10
483.4773989388
 20
-129.0576907926
 10
485.6440623192
 20
-131.0598768554
 10
487.6536581416
 20
-133.2845133353
 10
489.5001889822
 20
-135.7249610426
 10
491.1781440671
 20
-138.3739367223
 10
492.682515719
 20
-141.2235347898
 10
494.0088143015
 20
-144.2652509244
 10
495.1530816184
 20
-147.4900074497
 10
496.1119027263
 20
-150.8881804249
 10
496.8824161261
 20
-154.449628366
 10
497.4623223031
 20
-158.1637225128
 10
497.8498905893
 20
-162.0193785485
 10
498.0439643285
 20
-166.0050896801
 10
498.0439643285
 20
-170.108960979
 10
497.8498905893
 20
-174.3187448804
 10
497.4623223031
 20
-178.6218777345
 10
496.8824161261
 20
-183.0055173016
 10
496.1119027263
 20
-187.4565810782
 10
495.1530816184
 20
-191.9617853407
 10
494.0088143015
 20
-196.5076847888
 10
492.682515719
 20
-201.0807126719
 10
491.1781440671
 20
-205.6672212774
 10
489.5001889822
 20
-210.253522661
 10
487.6536581416
 20
-214.8259294969
 10
485.6440623192
 20
-219.3707959258
 10
483.4773989388
 20
-223.87455828
 10
481.1601341754
 20
-228.3237755626
 10
478.6991836579
 20
-232.7051695606
 10
476.1018918299
 20
-237.0056644721
 10
473.3760100309
 20
-241.2124259301
 10
470.5296733637
 20
-245.312899305
 10
467.5713764155
 20
-249.2948471727
 10
464.5099479072
 20
-253.1463858356
 10
461.3545243447
 20
-256.8560207887
 10
458.1145227521
 20
-260.4126810231
 10
454.7996125676
 20
-263.8057520669
 10
451.4196867859
 20
-267.0251076625
 10
447.9848324342
 20
-270.0611399875
 10
444.5053004678
 20
-272.9047883281
 10
440.9914751776
 20
-275.54756612
 10
437.4538431994
 20
-277.9815862756
 10
433.9029622175
 20
-280.1995847222
 10
430.3494294562
 20
-282.1949420805
 10
426.803850054
 20
-283.9617034201
 10
423.2768054134
 20
-285.4945960305
 10
419.7788216218
 20
-286.789045158
 10
416.3203380377
 20
-287.8411876574
 10
412.9116761354
 20
-288.647883522
 10
409.5630087017
 20
-289.2067252543
 10
406.2843294765
 20
-289.5160450509
 10
403.0854233271
 20
-289.5749197801
 10
399.9758370468
 20
-289.3831737363
 10
396.9648508632
 20
-288.9413791653
 10
394.0614507425
 20
-288.2508545557
 10
391.2743015718
 20
-287.3136607042
 10
388.6117212997
 20
-286.1325945657
 10
386.0816561122
 20
-284.7111809058
 10
383.6916567182
 20
-283.0536617814
 10
381.4488558153
 20
-281.1649838812
 10
379.3599468028
 20
-279.0507837622
 10
377.4311638063
 20
-276.7173710285
 10
375.6682630722
 20
-274.171709501
 10
374.0765057893
 20
-271.4213964341
 10
372.660642387
 20
-268.4746398429
 10
371.424898358
 20
-265.3402340074
 10
370.3729616483
 20
-262.0275332264
 10
369.5079716505
 20
-258.5464239012
 10
368.8325098346
 20
-254.90729503
 10
368.3485920442
 20
-251.1210072039
 10
368.0576624803
 20
-247.1988601937
 10
367.9605893909
 20
-243.1525592277
  0
LWPOLYLINE
  5
BB
330
1F
100
AcDbEntity
  8
0
  6
Continuous
 62
     7
370
    25
100
AcDbPolyline
 90
       66
 70
   128
 43
0.0
 10
526.7365013737
 20
-129.8021040293
 10
527.7749224397
 20
-130.424123418
 10
530.4345174112
 20
-132.2380899305
 10
532.9474207286
 20
-134.2845239302
 10
535.3074828963
 20
-136.5584174499
 10
537.5089284468
 20
-139.0542058914
 10
539.5463700739
 20
-141.7657816419
 10
541.4148218166
 20
-144.6865090214
 10
543.1097112603
 20
-147.8092405204
 10
544.6268907265
 20
-151.1263342917
 10
545.9626474229
 20
-154.629672851
 10
547.113712529
 20
-158.3106829418
 10
548.0772691955
 20
-162.1603565155
 10
548.8509594379
 20
-166.1692727758
 10
549.4328899064
 20
-170.3276212329
 10
549.8216365198
 20
-174.6252257113
 10
550.0162479499
 20
-179.0515692526
 10
550.0162479499
 20
-183.5958198525
 10
549.8216365198
 20
-188.2468569682
 10
549.4328899064
 20
-192.9932987326
 10
548.8509594379
 20
-197.8235298073
 10
548.0772691955
 20
-202.7257298074
 10
547.113712529
 20
-207.6879022281
 10
545.9626474229
 20
-212.6979038019
 10
544.6268907265
 20
-217.7434742155
 10
543.1097112603
 20
-222.8122661126
 10
541.4148218166
 20
-227.89187531
 10
539.5463700739
 20
-232.9698711528
 10
537.5089284468
 20
-238.0338269342
 10
535.3074828963
 20
-243.0713503059
 10
532.9474207286
 20
-248.0701136041
 10
530.4345174112
 20
-253.0178840172
 10
527.7749224397
 20
-257.9025535221
 10
524.9751442887
 20
-262.7121685138
 10
522.0420344845
 20
-267.4349590586
 10
518.9827708382
 20
-272.0593676965
 10
515.8048398806
 20
-276.5740777248
 10
512.5160185414
 20
-280.9680408914
 10
509.1243551174
 20
-285.2305044322
 10
505.6381495774
 20
-289.3510373846
 10
502.0659332505
 20
-293.3195561141
 10
498.4164479488
 20
-297.1263489901
 10
494.6986245742
 20
-300.7621001528
 10
490.9215612636
 20
-304.2179123097
 10
487.0945011239
 20
-307.4853285094
 10
483.2268096124
 20
-310.556352837
 10
479.3279516185
 20
-313.4234699812
 10
475.4074683009
 20
-316.079663626
 10
471.4749537394
 20
-318.5184336204
 10
467.540031456
 20
-320.7338118857
 10
463.612330865
 20
-322.7203770199
 10
459.7014637078
 20
-324.4732675652
 10
455.8170005317
 20
-325.9881939048
 10
451.9684472692
 20
-327.2614487601
 10
448.1652219748
 20
-328.289916263
 10
444.4166317782
 20
-329.0710795813
 10
440.7318501078
 20
-329.6030270774
 10
437.1198942418
 20
-329.8844569866
 10
433.5896032415
 20
-329.9146806029
 10
430.1496163205
 20
-329.6936239638
 10
426.8083517032
 20
-329.2218280321
 10
423.5739860241
 20
-328.5004473716
 10
420.4544343179
 20
-327.5312473214
 10
417.4573306505
 20
-326.3165996767
 10
414.5900094367
 20
-324.8594768836
 10
414.2456439521
 20
-324.663098065
  0
LWPOLYLINE
  5
BC
330
1F
100
AcDbEntity
  8
0
  6
Continuous
 62
     7
370
    25
100
AcDbPolyline
 90
       73
 70
   128
 43
0.0
 10
546.4048657101
 20
-134.8411786053
 10
548.3771733011
 20
-135.5015845108
 10
551.4442307036
 20
-136.7596028237
 10
554.3820161375
 20
-138.2585728162
 10
557.183772602
 20
-139.9950468091
 10
559.8430559675
 20
-141.9650308567
 10
562.353749797
 20
-144.1639939325
 10
564.7100794143
 20
-146.586878351
 10
566.9066251858
 20
-149.2281114003
 10
568.9383349858
 20
-152.0816181599
 10
570.8005358166
 20
-155.1408354727
 10
572.4889445566
 20
-158.3987270408
 10
573.9996778117
 20
-161.8477996093
 10
575.329260847
 20
-165.4801202008
 10
576.4746355788
 20
-169.2873343614
 10
577.4331676086
 20
-173.2606853766
 10
578.202652282
 20
-177.3910344118
 10
578.7813197595
 20
-181.6688815317
 10
579.1678390875
 20
-186.084387551
 10
579.3613212591
 20
-190.6273966643
 10
579.3613212591
 20
-195.287459805
 10
579.1678390875
 20
-200.0538586786
 10
578.7813197595
 20
-204.915630415
 10
578.202652282
 20
-209.8615927833
 10
577.4331676086
 20
-214.8803699116
 10
576.4746355788
 20
-219.9604184517
 10
575.329260847
 20
-225.0900541291
 10
573.9996778117
 20
-230.2574786175
 10
572.4889445566
 20
-235.4508066748
 10
570.8005358166
 20
-240.6580934802
 10
568.9383349858
 20
-245.8673621071
 10
566.9066251858
 20
-251.0666310708
 10
564.7100794143
 20
-256.2439418859
 10
562.353749797
 20
-261.3873865718
 10
559.8430559675
 20
-266.4851350408
 10
557.183772602
 20
-271.5254623081
 10
554.3820161375
 20
-276.4967754595
 10
551.4442307036
 20
-281.3876403153
 10
548.3771733011
 20
-286.1868077298
 10
545.1878982602
 20
-290.883239464
 10
541.8837410156
 20
-295.4661335744
 10
538.4723012351
 20
-299.9249492579
 10
534.9614253392
 20
-304.2494310953
 10
531.3591884553
 20
-308.4296326399
 10
527.6738758434
 20
-312.4559392942
 10
523.9139638407
 20
-316.3190904238
 10
520.0881003653
 20
-320.0102006574
 10
516.2050850259
 20
-323.5207803232
 10
512.273848882
 20
-326.8427549753
 10
508.3034339028
 20
-329.9684839657
 10
504.3029721701
 20
-332.8907780175
 10
500.2816648739
 20
-335.6029157608
 10
496.24876115
 20
-338.0986591917
 10
492.2135368061
 20
-340.3722680206
 10
488.1852729876
 20
-342.4185128741
 10
484.1732348302
 20
-344.2326873235
 10
480.1866501504
 20
-345.8106187096
 10
476.2346882206
 20
-347.1486777395
 10
472.32643868
 20
-348.2437868345
 10
468.4708906276
 20
-349.0934272088
 10
464.6769119477
 20
-349.6956446621
 10
460.9532289127
 20
-350.0490540751
 10
457.3084061129
 20
-350.1528425947
 10
453.7508267576
 20
-350.0067715041
 10
450.2886733934
 20
-349.6111767714
 10
446.9299090837
 20
-348.9669682772
 10
443.6822590944
 20
-348.0756277217
 10
440.5531931243
 20
-346.9392052167
 10
437.5499081255
 20
-345.5603145704
 10
434.6793117497
 20
-343.9421272755
 10
431.9480064605
 20
-342.0883652145
 10
429.3622743478
 20
-340.0032920998
 10
428.4451545978
 20
-339.1755315506
  0
LWPOLYLINE
  5
BD
330
1F
100
AcDbEntity
  8
0
  6
Continuous
 62
     7
370
    25
100
AcDbPolyline
 90
       24
 70
   128
 43
0.0
 10
445.5441359912
 20
-272.0797268328
 10
445.8755040186
 20
-270.0581630639
 10
446.7404940165
 20
-265.578357545
 10
447.7924307262
 20
-261.0511164912
 10
449.0281747551
 20
-256.4899509693
 10
450.4440381575
 20
-251.9084732898
 10
452.0357954404
 20
-247.3203563828
 10
453.7986961744
 20
-242.7392929925
 10
455.7274791709
 20
-238.1789548125
 10
457.8163881834
 20
-233.6529516844
 10
460.0591890864
 20
-229.1747909802
 10
462.4491884804
 20
-224.7578372918
 10
464.9792536679
 20
-220.4152725448
 10
467.64183394
 20
-216.1600566593
 10
470.4289831107
 20
-212.0048888718
 10
473.3323832313
 20
-207.9621698363
 10
476.3433694149
 20
-204.0439646152
 10
479.4529556952
 20
-200.2619666729
 10
482.6518618446
 20
-196.6274629777
 10
485.9305410699
 20
-193.1513003172
 10
489.2792085035
 20
-189.8438529269
 10
492.6878704058
 20
-186.7149915298
 10
496.1463539899
 20
-183.7740538781
 10
496.852222897
 20
-183.2018833733
  0
LWPOLYLINE
  5
BE
330
1F
100
AcDbEntity
  8
0
  6
Continuous
 62
     7
370
    25
100
AcDbPolyline
 90
       71
 70
   128
 43
0.0
 10
584.861782089
 20
-138.5317252342
 10
587.4641482411
 20
-140.1555471495
 10
590.2985276908
 20
-142.2267555798
 10
592.9849341434
 20
-144.5274998938
 10
595.5178794247
 20
-147.0530798027
 10
597.8921888724
 20
-149.7983356914
 10
600.1030119084
 20
-152.7576591595
 10
602.145831948
 20
-155.9250044788
 10
604.0164756269
 20
-159.2939009441
 10
605.7111213272
 20
-162.857466093
 10
607.2263069848
 20
-166.6084197662
 10
608.5589371623
 20
-170.5390989803
 10
609.7062893726
 20
-174.6414735827
 10
610.6660196409
 20
-178.9071626574
 10
611.4361672931
 20
-183.3274516458
 10
612.0151589619
 20
-187.893310151
 10
612.4018118004
 20
-192.5954103856
 10
612.5953358989
 20
-197.4241462282
 10
612.5953358989
 20
-202.3696528482
 10
612.4018118004
 20
-207.4218268589
 10
612.0151589619
 20
-212.5703469585
 10
611.4361672931
 20
-217.8046950152
 10
610.6660196409
 20
-223.1141775559
 10
609.7062893726
 20
-228.4879476121
 10
608.5589371623
 20
-233.9150268795
 10
607.2263069848
 20
-239.384328146
 10
605.7111213272
 20
-244.8846779425
 10
604.0164756269
 20
-250.4048393697
 10
602.145831948
 20
-255.933535054
 10
600.1030119084
 20
-261.459470187
 10
597.8921888724
 20
-266.9713555997
 10
595.5178794247
 20
-272.4579308261
 10
592.9849341434
 20
-277.9079871075
 10
590.2985276908
 20
-283.3103902911
 10
587.4641482411
 20
-288.6541035767
 10
584.4875862693
 20
-293.9282100644
 10
581.3749227208
 20
-299.1219350568
 10
578.132516589
 20
-304.2246680712
 10
574.7669919237
 20
-309.2259845167
 10
571.2852242991
 20
-314.1156669902
 10
567.6943267669
 20
-318.8837261506
 10
564.0016353249
 20
-323.5204211262
 10
560.2146939302
 20
-328.016279415
 10
556.3412390872
 20
-332.362116236
 10
552.3891840419
 20
-336.5490532937
 10
548.3666026166
 20
-340.5685369155
 10
544.2817127145
 20
-344.4123555267
 10
540.1428595317
 20
-348.0726564262
 10
535.9584985079
 20
-351.5419618289
 10
531.7371780532
 20
-354.8131841427
 10
527.4875220831
 20
-357.8796404478
 10
523.2182124015
 20
-360.7350661498
 10
518.9379709633
 20
-363.3736277775
 10
514.6555420566
 20
-365.7899349007
 10
510.3796744382
 20
-367.9790511425
 10
506.1191034606
 20
-369.9365042637
 10
501.8825332262
 20
-371.6582952999
 10
497.6786188053
 20
-373.1409067305
 10
493.5159485542
 20
-374.3813096654
 10
489.4030265696
 20
-375.3769700324
 10
485.3482553154
 20
-376.1258537546
 10
481.3599184571
 20
-376.6264309053
 10
477.4461639383
 20
-376.8776788341
 10
473.6149873352
 20
-376.8790842559
 10
469.8742155221
 20
-376.6306442995
 10
466.2314906814
 20
-376.1328665135
 10
462.6942546913
 20
-375.3867678293
 10
459.2697339222
 20
-374.393872484
 10
455.9649244738
 20
-373.1562089056
 10
452.7865778825
 20
-371.6763055701
 10
450.8726719158
 20
-370.6328203522
  0
LWPOLYLINE
  5
BF
330
1F
100
AcDbEntity
  8
0
  6
Continuous
 62
     7
370
    25
100
AcDbPolyline
 90
       97
 70
   128
 43
0.0
 10
515.0825899159
 20
-123.074444147
 10
517.5154425337
 20
-122.3104614949
 10
521.6542957165
 20
-121.1921442252
 10
525.7391856186
 20
-120.319649345
 10
529.761767044
 20
-119.6947593114
 10
533.7138220892
 20
-119.3187507389
 10
537.5872769323
 20
-119.1923917915
 10
541.3742183269
 20
-119.3159406132
 10
545.0669097689
 20
-119.6891448009
 10
548.6578073012
 20
-120.3112419199
 10
552.1395749258
 20
-121.1809610613
 10
555.505099591
 20
-122.2965254388
 10
558.7475057228
 20
-123.6556560183
 10
561.8601692713
 20
-125.2555761739
 10
564.8367312432
 20
-127.0930173603
 10
567.6711106928
 20
-129.1642257907
 10
570.3575171455
 20
-131.4649701047
 10
572.8904624267
 20
-133.9905500135
 10
575.2647718744
 20
-136.7358059023
 10
577.4755949105
 20
-139.6951293704
 10
579.5184149501
 20
-142.8624746896
 10
581.3890586289
 20
-146.2313711549
 10
583.0837043292
 20
-149.7949363039
 10
584.5988899868
 20
-153.5458899771
 10
585.9315201643
 20
-157.4765691911
 10
587.0788723746
 20
-161.5789437936
 10
588.0386026429
 20
-165.8446328682
 10
588.8087502952
 20
-170.2649218567
 10
589.3877419639
 20
-174.8307803618
 10
589.7743948024
 20
-179.5328805964
 10
589.9679189009
 20
-184.361616439
 10
589.9679189009
 20
-189.307123059
 10
589.7743948024
 20
-194.3592970698
 10
589.3877419639
 20
-199.5078171693
 10
588.8087502952
 20
-204.742165226
 10
588.0386026429
 20
-210.0516477668
 10
587.0788723746
 20
-215.425417823
 10
585.9315201643
 20
-220.8524970903
 10
584.5988899868
 20
-226.3217983568
 10
583.0837043292
 20
-231.8221481534
 10
581.3890586289
 20
-237.3423095806
 10
579.5184149501
 20
-242.8710052649
 10
577.4755949105
 20
-248.3969403978
 10
575.2647718744
 20
-253.9088258105
 10
572.8904624267
 20
-259.395401037
 10
570.3575171455
 20
-264.8454573183
 10
567.6711106928
 20
-270.2478605019
 10
564.8367312432
 20
-275.5915737876
 10
561.8601692713
 20
-280.8656802752
 10
558.7475057228
 20
-286.0594052676
 10
555.505099591
 20
-291.1621382821
 10
552.1395749258
 20
-296.1634547275
 10
548.6578073012
 20
-301.053137201
 10
545.0669097689
 20
-305.8211963614
 10
541.3742183269
 20
-310.4578913371
 10
537.5872769323
 20
-314.9537496258
 10
533.7138220892
 20
-319.2995864469
 10
529.761767044
 20
-323.4865235045
 10
525.7391856186
 20
-327.5060071263
 10
521.6542957165
 20
-331.3498257375
 10
517.5154425337
 20
-335.010126637
 10
513.33108151
 20
-338.4794320397
 10
509.1097610552
 20
-341.7506543535
 10
504.8601050852
 20
-344.8171106587
 10
500.5907954036
 20
-347.6725363606
 10
496.3105539654
 20
-350.3110979884
 10
492.0281250586
 20
-352.7274051116
 10
487.7522574402
 20
-354.9165213533
 10
483.4916864626
 20
-356.8739744746
 10
479.2551162283
 20
-358.5957655107
 10
475.0512018074
 20
-360.0783769413
 10
470.8885315562
 20
-361.3187798762
 10
466.7756095716
 20
-362.3144402433
 10
462.7208383175
 20
-363.0633239654
 10
458.7325014592
 20
-363.5639011161
 10
454.8187469403
 20
-363.8151490449
 10
450.9875703372
 20
-363.8165544667
 10
447.2467985241
 20
-363.5681145103
 10
443.6040736834
 20
-363.0703367243
 10
440.0668376933
 20
-362.3242380402
 10
436.6423169242
 20
-361.3313426948
 10
433.3375074759
 20
-360.0936791165
 10
430.1591608846
 20
-358.6137757809
 10
427.1137703303
 20
-356.894656046
 10
424.2075573714
 20
-354.9398319746
 10
421.4464592346
 20
-352.7532971605
 10
418.836116685
 20
-350.3395185689
 10
416.3818625029
 20
-347.7034274112
 10
414.0887105889
 20
-344.8504090706
 10
411.9613457212
 20
-341.7862921001
 10
410.0041139841
 20
-338.5173363151
 10
408.2210138899
 20
-335.0502200048
 10
406.6156882101
 20
-331.3920262894
 10
405.1914165329
 20
-327.5502286489
 10
403.9511085637
 20
-323.5326756558
 10
402.8972981808
 20
-319.3475749407
 10
402.5917324943
 20
-317.9354381827
  0
ARC
  5
C0
330
1F
100
AcDbEntity
  8
0
  6
Continuous
 62
     7
370
    25
100
AcDbCircle
 10
614.6002295466
 20
-310.4250465151
 30
0.0
 40
171.7967288987845
100
AcDbArc
 50
133.4585621581
 51
166.5468143746
  0
ENDSEC
  0
SECTION
  2
OBJECTS
  0
DICTIONARY
  5
C
330
0
100
AcDbDictionary
281
     1
  3
ACAD_GROUP
350
D
  3
ACAD_LAYOUT
350
1A
  3
ACAD_MLINESTYLE
350
17
  3
ACAD_PLOTSETTINGS
350
19
  3
ACAD_PLOTSTYLENAME
350
E
  3
ACAD_SCALELIST
350
47
  0
DICTIONARY
  5
D
102
{ACAD_REACTORS
330
C
102
}
330
C
100
AcDbDictionary
281
     1
  0
DICTIONARY
  5
1A
102
{ACAD_REACTORS
330
C
102
}
330
C
100
AcDbDictionary
281
     1
  3
Layout1
350
1E
  3
Layout2
350
26
  3
Model
350
22
  0
DICTIONARY
  5
17
102
{ACAD_REACTORS
330
C
102
}
330
C
100
AcDbDictionary
281
     1
  3
Standard
350
18
  0
DICTIONARY
  5
19
102
{ACAD_REACTORS
330
C
102
}
330
C
100
AcDbDictionary
281
     1
  0
ACDBDICTIONARYWDFLT
  5
E
102
{ACAD_REACTORS
330
C
102
}
330
C
100
AcDbDictionary
281
     1
  3
Normal
350
F
100
AcDbDictionaryWithDefault
340
F
  0
DICTIONARY
  5
47
102
{ACAD_REACTORS
330
C
102
}
330
C
100
AcDbDictionary
281
     1
  3
A0
350
48
  3
A1
350
49
  3
A2
350
4A
  3
A3
350
4B
  3
A4
350
4C
  3
A5
350
4D
  3
A6
350
4E
  3
A7
350
4F
  3
A8
350
50
  3
A9
350
51
  3
B0
350
52
  3
B1
350
53
  3
B2
350
54
  3
B3
350
55
  3
B4
350
56
  3
B5
350
57
  3
B6
350
58
  3
B7
350
59
  3
B8
350
5A
  3
B9
350
5B
  3
C0
350
5C
  3
C1
350
5D
  3
C2
350
5E
  3
C3
350
5F
  3
C4
350
60
  3
C5
350
61
  3
C6
350
62
  3
C7
350
63
  3
C8
350
64
  3
C9
350
65
  3
D0
350
66
  3
D1
350
67
  3
D2
350
68
  0
LAYOUT
  5
1E
102
{ACAD_REACTORS
330
1A
102
}
330
1A
100
AcDbPlotSettings
  1

  2
none_device
  4

  6

 40
0.0
 41
0.0
 42
0.0
 43
0.0
 44
0.0
 45
0.0
 46
0.0
 47
0.0
 48
0.0
 49
0.0
140
0.0
141
0.0
142
1.0
143
1.0
 70
   688
 72
     1
 73
     0
 74
     5
  7

 75
    16
147
1.0
148
0.0
149
0.0
100
AcDbLayout
  1
Layout1
 70
     1
 71
     1
 10
0.0
 20
0.0
 11
420.0
 21
297.0
 12
0.0
 22
0.0
 32
0.0
 14
1.0000000000E+20
 24
1.0000000000E+20
 34
1.0000000000E+20
 15
-1.0000000000E+20
 25
-1.0000000000E+20
 35
-1.0000000000E+20
146
0.0
 13
0.0
 23
0.0
 33
0.0
 16
1.0
 26
0.0
 36
0.0
 17
0.0
 27
1.0
 37
0.0
 76
     0
330
1B
  0
LAYOUT
  5
26
102
{ACAD_REACTORS
330
1A
102
}
330
1A
100
AcDbPlotSettings
  1

  2
none_device
  4

  6

 40
0.0
 41
0.0
 42
0.0
 43
0.0
 44
0.0
 45
0.0
 46
0.0
 47
0.0
 48
0.0
 49
0.0
140
0.0
141
0.0
142
1.0
143
1.0
 70
   688
 72
     1
 73
     0
 74
     5
  7

 75
    16
147
1.0
148
0.0
149
0.0
100
AcDbLayout
  1
Layout2
 70
     1
 71
     2
 10
0.0
 20
0.0
 11
0.0
 21
0.0
 12
0.0
 22
0.0
 32
0.0
 14
0.0
 24
0.0
 34
0.0
 15
0.0
 25
0.0
 35
0.0
146
0.0
 13
0.0
 23
0.0
 33
0.0
 16
1.0
 26
0.0
 36
0.0
 17
0.0
 27
1.0
 37
0.0
 76
     0
330
23
  0
LAYOUT
  5
22
102
{ACAD_REACTORS
330
1A
102
}
330
1A
100
AcDbPlotSettings
  1

  2
none_device
  4
Letter_(8.50_x_11.00_Inches)
  6

 40
6.35
 41
6.35
 42
6.35000508
 43
6.35000508
 44
215.9
 45
279.4
 46
0.0
 47
0.0
 48
0.0
 49
0.0
140
0.0
141
0.0
142
1.0
143
1.0
 70
  1712
 72
     1
 73
     0
 74
     0
  7

 75
     0
147
1.0
148
0.0
149
0.0
100
AcDbLayout
  1
Model
 70
     1
 71
     0
 10
0.0
 20
0.0
 11
279.4
 21
215.9
 12
0.0
 22
0.0
 32
0.0
 14
0.0
 24
0.0
 34
0.0
 15
279.4
 25
215.9
 35
0.0
146
0.0
 13
0.0
 23
0.0
 33
0.0
 16
1.0
 26
0.0
 36
0.0
 17
0.0
 27
1.0
 37
0.0
 76
     0
330
1F
331
29
  0
MLINESTYLE
  5
18
102
{ACAD_REACTORS
330
17
102
}
330
17
100
AcDbMlineStyle
  2
Standard
 70
     0
  3

 62
   256
 51
90.0
 52
90.0
 71
     2
 49
0.5
 62
   256
  6
BYLAYER
 49
-0.5
 62
   256
  6
BYLAYER
  0
ACDBPLACEHOLDER
  5
F
102
{ACAD_REACTORS
330
E
102
}
330
E
  0
SCALE
  5
48
102
{ACAD_REACTORS
330
47
102
}
330
47
100
AcDbScale
 70
     0
300
1:1
140
1.0
141
1.0
290
     1
  0
SCALE
  5
49
102
{ACAD_REACTORS
330
47
102
}
330
47
100
AcDbScale
 70
     0
300
1:2
140
1.0
141
2.0
290
     0
  0
SCALE
  5
4A
102
{ACAD_REACTORS
330
47
102
}
330
47
100
AcDbScale
 70
     0
300
1:4
140
1.0
141
4.0
290
     0
  0
SCALE
  5
4B
102
{ACAD_REACTORS
330
47
102
}
330
47
100
AcDbScale
 70
     0
300
1:5
140
1.0
141
5.0
290
     0
  0
SCALE
  5
4C
102
{ACAD_REACTORS
330
47
102
}
330
47
100
AcDbScale
 70
     0
300
1:8
140
1.0
141
8.0
290
     0
  0
SCALE
  5
4D
102
{ACAD_REACTORS
330
47
102
}
330
47
100
AcDbScale
 70
     0
300
1:10
140
1.0
141
10.0
290
     0
  0
SCALE
  5
4E
102
{ACAD_REACTORS
330
47
102
}
330
47
100
AcDbScale
 70
     0
300
1:16
140
1.0
141
16.0
290
     0
  0
SCALE
  5
4F
102
{ACAD_REACTORS
330
47
102
}
330
47
100
AcDbScale
 70
     0
300
1:20
140
1.0
141
20.0
290
     0
  0
SCALE
  5
50
102
{ACAD_REACTORS
330
47
102
}
330
47
100
AcDbScale
 70
     0
300
1:30
140
1.0
141
30.0
290
     0
  0
SCALE
  5
51
102
{ACAD_REACTORS
330
47
102
}
330
47
100
AcDbScale
 70
     0
300
1:40
140
1.0
141
40.0
290
     0
  0
SCALE
  5
52
102
{ACAD_REACTORS
330
47
102
}
330
47
100
AcDbScale
 70
     0
300
1:50
140
1.0
141
50.0
290
     0
  0
SCALE
  5
53
102
{ACAD_REACTORS
330
47
102
}
330
47
100
AcDbScale
 70
     0
300
1:100
140
1.0
141
100.0
290
     0
  0
SCALE
  5
54
102
{ACAD_REACTORS
330
47
102
}
330
47
100
AcDbScale
 70
     0
300
2:1
140
2.0
141
1.0
290
     0
  0
SCALE
  5
55
102
{ACAD_REACTORS
330
47
102
}
330
47
100
AcDbScale
 70
     0
300
4:1
140
4.0
141
1.0
290
     0
  0
SCALE
  5
56
102
{ACAD_REACTORS
330
47
102
}
330
47
100
AcDbScale
 70
     0
300
8:1
140
8.0
141
1.0
290
     0
  0
SCALE
  5
57
102
{ACAD_REACTORS
330
47
102
}
330
47
100
AcDbScale
 70
     0
300
10:1
140
10.0
141
1.0
290
     0
  0
SCALE
  5
58
102
{ACAD_REACTORS
330
47
102
}
330
47
100
AcDbScale
 70
     0
300
100:1
140
100.0
141
1.0
290
     0
  0
SCALE
  5
59
102
{ACAD_REACTORS
330
47
102
}
330
47
100
AcDbScale
 70
     0
300
1/128" = 1'-0"
140
0.0078125
141
12.0
290
     0
  0
SCALE
  5
5A
102
{ACAD_REACTORS
330
47
102
}
330
47
100
AcDbScale
 70
     0
300
1/64" = 1'-0"
140
0.015625
141
12.0
290
     0
  0
SCALE
  5
5B
102
{ACAD_REACTORS
330
47
102
}
330
47
100
AcDbScale
 70
     0
300
1/32" = 1'-0"
140
0.03125
141
12.0
290
     0
  0
SCALE
  5
5C
102
{ACAD_REACTORS
330
47
102
}
330
47
100
AcDbScale
 70
     0
300
1/16" = 1'-0"
140
0.0625
141
12.0
290
     0
  0
SCALE
  5
5D
102
{ACAD_REACTORS
330
47
102
}
330
47
100
AcDbScale
 70
     0
300
3/32" = 1'-0"
140
0.09375
141
12.0
290
     0
  0
SCALE
  5
5E
102
{ACAD_REACTORS
330
47
102
}
330
47
100
AcDbScale
 70
     0
300
1/8" = 1'-0"
140
0.125
141
12.0
290
     0
  0
SCALE
  5
5F
102
{ACAD_REACTORS
330
47
102
}
330
47
100
AcDbScale
 70
     0
300
3/16" = 1'-0"
140
0.1875
141
12.0
290
     0
  0
SCALE
  5
60
102
{ACAD_REACTORS
330
47
102
}
330
47
100
AcDbScale
 70
     0
300
1/4" = 1'-0"
140
0.25
141
12.0
290
     0
  0
SCALE
  5
61
102
{ACAD_REACTORS
330
47
102
}
330
47
100
AcDbScale
 70
     0
300
3/8" = 1'-0"
140
0.375
141
12.0
290
     0
  0
SCALE
  5
62
102
{ACAD_REACTORS
330
47
102
}
330
47
100
AcDbScale
 70
     0
300
1/2" = 1'-0"
140
0.5
141
12.0
290
     0
  0
SCALE
  5
63
102
{ACAD_REACTORS
330
47
102
}
330
47
100
AcDbScale
 70
     0
300
3/4" = 1'-0"
140
0.75
141
12.0
290
     0
  0
SCALE
  5
64
102
{ACAD_REACTORS
330
47
102
}
330
47
100
AcDbScale
 70
     0
300
1" = 1'-0"
140
1.0
141
12.0
290
     0
  0
SCALE
  5
65
102
{ACAD_REACTORS
330
47
102
}
330
47
100
AcDbScale
 70
     0
300
1-1/2" = 1'-0"
140
1.5
141
12.0
290
     0
  0
SCALE
  5
66
102
{ACAD_REACTORS
330
47
102
}
330
47
100
AcDbScale
 70
     0
300
3" = 1'-0"
140
3.0
141
12.0
290
     0
  0
SCALE
  5
67
102
{ACAD_REACTORS
330
47
102
}
330
47
100
AcDbScale
 70
     0
300
6" = 1'-0"
140
6.0
141
12.0
290
     0
  0
SCALE
  5
68
102
{ACAD_REACTORS
330
47
102
}
330
47
100
AcDbScale
 70
     0
300
1'-0" = 1'-0"
140
12.0
141
12.0
290
     0
  0
ENDSEC
  0
EOF
